ISO-10303-21;
HEADER;
FILE_DESCRIPTION (( 'STEP AP203' ),
    '1' );
FILE_NAME ('BK7-LNPBSP-25.4-780.STEP',
    '2020-12-22T04:12:31',
    ( '' ),
    ( '' ),
    'SwSTEP 2.0',
    'SolidWorks 2020',
    '' );
FILE_SCHEMA (( 'CONFIG_CONTROL_DESIGN' ));
ENDSEC;

DATA;
#1 = CARTESIAN_POINT ( 'NONE',  ( 2.999999999999998224, 1.555301434917138433E-15, -12.69999999999999929 ) ) ;
#2 = ORIENTED_EDGE ( 'NONE', *, *, #89, .T. ) ;
#3 =( LENGTH_UNIT ( ) NAMED_UNIT ( * ) SI_UNIT ( .MILLI., .METRE. ) );
#4 = VERTEX_POINT ( 'NONE', #170 ) ;
#5 = CARTESIAN_POINT ( 'NONE',  ( -1.187907395172932594E-15, 0.000000000000000000, 0.000000000000000000 ) ) ;
#6 = AXIS2_PLACEMENT_3D ( 'NONE', #5, #36, #58 ) ;
#7 = DIRECTION ( 'NONE',  ( -1.000000000000000000, -0.000000000000000000, -0.000000000000000000 ) ) ;
#8 = PERSON_AND_ORGANIZATION ( #119, #151 ) ;
#9 = PERSON_AND_ORGANIZATION_ROLE ( 'creator' ) ;
#10 = CIRCLE ( 'NONE', #6, 12.69999999999999929 ) ;
#11 = CARTESIAN_POINT ( 'NONE',  ( 0.000000000000000000, 0.000000000000000000, 0.000000000000000000 ) ) ;
#12 = AXIS2_PLACEMENT_3D ( 'NONE', #130, #128, #141 ) ;
#13 = CC_DESIGN_PERSON_AND_ORGANIZATION_ASSIGNMENT ( #120, #174, ( #157 ) ) ;
#14 = DIRECTION ( 'NONE',  ( 0.000000000000000000, 0.000000000000000000, 1.000000000000000000 ) ) ;
#15 = DIRECTION ( 'NONE',  ( -0.000000000000000000, 0.000000000000000000, 1.000000000000000000 ) ) ;
#16 = AXIS2_PLACEMENT_3D ( 'NONE', #50, #144, #14 ) ;
#17 = FACE_OUTER_BOUND ( 'NONE', #112, .T. ) ;
#18 = FACE_OUTER_BOUND ( 'NONE', #110, .T. ) ;
#19 = CC_DESIGN_PERSON_AND_ORGANIZATION_ASSIGNMENT ( #173, #149, ( #125 ) ) ;
#20 = AXIS2_PLACEMENT_3D ( 'NONE', #102, #154, #15 ) ;
#21 = APPROVAL_STATUS ( 'not_yet_approved' ) ;
#22 = PERSON_AND_ORGANIZATION ( #119, #151 ) ;
#23 = CC_DESIGN_APPROVAL ( #164, ( #79 ) ) ;
#24 = APPROVAL_STATUS ( 'not_yet_approved' ) ;
#25 = EDGE_CURVE ( 'NONE', #35, #4, #72, .T. ) ;
#26 = AXIS2_PLACEMENT_3D ( 'NONE', #133, #145, #31 ) ;
#27 = PRODUCT_RELATED_PRODUCT_CATEGORY ( 'detail', '', ( #125 ) ) ;
#28 = DIRECTION ( 'NONE',  ( 0.000000000000000000, 0.000000000000000000, 1.000000000000000000 ) ) ;
#29 = ORIENTED_EDGE ( 'NONE', *, *, #124, .T. ) ;
#30 = CC_DESIGN_PERSON_AND_ORGANIZATION_ASSIGNMENT ( #22, #148, ( #75 ) ) ;
#31 = DIRECTION ( 'NONE',  ( 0.000000000000000000, 0.000000000000000000, -1.000000000000000000 ) ) ;
#32 = VERTEX_POINT ( 'NONE', #71 ) ;
#33 = FACE_OUTER_BOUND ( 'NONE', #100, .T. ) ;
#34 = AXIS2_PLACEMENT_3D ( 'NONE', #76, #166, #169 ) ;
#35 = VERTEX_POINT ( 'NONE', #1 ) ;
#36 = DIRECTION ( 'NONE',  ( -1.000000000000000000, -0.000000000000000000, -0.000000000000000000 ) ) ;
#37 = COORDINATED_UNIVERSAL_TIME_OFFSET ( 8, 0, .AHEAD. ) ;
#38 = VECTOR ( 'NONE', #7, 1000.000000000000000 ) ;
#39 = APPLICATION_PROTOCOL_DEFINITION ( 'international standard', 'config_control_design', 1994, #55 ) ;
#40 = CALENDAR_DATE ( 2020, 22, 12 ) ;
#41 = COORDINATED_UNIVERSAL_TIME_OFFSET ( 8, 0, .AHEAD. ) ;
#42 = ADVANCED_FACE ( 'NONE', ( #18 ), #61, .T. ) ;
#43 = DIRECTION ( 'NONE',  ( 0.000000000000000000, 0.000000000000000000, 1.000000000000000000 ) ) ;
#44 = APPROVAL_DATE_TIME ( #122, #164 ) ;
#45 = ORIENTED_EDGE ( 'NONE', *, *, #138, .T. ) ;
#46 = CC_DESIGN_SECURITY_CLASSIFICATION ( #79, ( #157 ) ) ;
#47 = APPROVAL_ROLE ( '' ) ;
#48 =( NAMED_UNIT ( * ) PLANE_ANGLE_UNIT ( ) SI_UNIT ( $, .RADIAN. ) );
#49 = VERTEX_POINT ( 'NONE', #111 ) ;
#50 = CARTESIAN_POINT ( 'NONE',  ( 0.000000000000000000, 0.000000000000000000, 0.000000000000000000 ) ) ;
#51 = DATE_TIME_ROLE ( 'creation_date' ) ;
#52 = UNCERTAINTY_MEASURE_WITH_UNIT (LENGTH_MEASURE( 1.000000000000000082E-05 ), #3, 'distance_accuracy_value', 'NONE');
#53 = COORDINATED_UNIVERSAL_TIME_OFFSET ( 8, 0, .AHEAD. ) ;
#54 = AXIS2_PLACEMENT_3D ( 'NONE', #11, #43, #106 ) ;
#55 = APPLICATION_CONTEXT ( 'configuration controlled 3d designs of mechanical parts and assemblies' ) ;
#56 = ORIENTED_EDGE ( 'NONE', *, *, #132, .F. ) ;
#57 = ORIENTED_EDGE ( 'NONE', *, *, #132, .T. ) ;
#58 = DIRECTION ( 'NONE',  ( 0.000000000000000000, 0.000000000000000000, 1.000000000000000000 ) ) ;
#59 = APPROVAL ( #105, 'UNSPECIFIED' ) ;
#60 = CARTESIAN_POINT ( 'NONE',  ( 0.000000000000000000, 1.555301434917138433E-15, -12.69999999999999929 ) ) ;
#61 = CYLINDRICAL_SURFACE ( 'NONE', #16, 12.69999999999999929 ) ;
#62 = DATE_AND_TIME ( #92, #140 ) ;
#63 = APPROVAL_PERSON_ORGANIZATION ( #134, #69, #91 ) ;
#64 = PERSON_AND_ORGANIZATION ( #119, #151 ) ;
#65 = SECURITY_CLASSIFICATION_LEVEL ( 'unclassified' ) ;
#66 = CC_DESIGN_PERSON_AND_ORGANIZATION_ASSIGNMENT ( #160, #77, ( #79 ) ) ;
#67 = APPLICATION_CONTEXT ( 'configuration controlled 3d designs of mechanical parts and assemblies' ) ;
#68 = VECTOR ( 'NONE', #87, 1000.000000000000000 ) ;
#69 = APPROVAL ( #24, 'UNSPECIFIED' ) ;
#70 = CIRCLE ( 'NONE', #34, 12.69999999999999929 ) ;
#71 = CARTESIAN_POINT ( 'NONE',  ( -1.187907395172932594E-15, 1.555301434917138433E-15, -12.69999999999999929 ) ) ;
#72 = CIRCLE ( 'NONE', #165, 12.69999999999999929 ) ;
#73 = ORIENTED_EDGE ( 'NONE', *, *, #103, .T. ) ;
#74 = CYLINDRICAL_SURFACE ( 'NONE', #12, 12.69999999999999929 ) ;
#75 = PRODUCT_DEFINITION ( 'UNKNOWN', '', #157, #123 ) ;
#76 = CARTESIAN_POINT ( 'NONE',  ( -1.187907395172932594E-15, 0.000000000000000000, 0.000000000000000000 ) ) ;
#77 = PERSON_AND_ORGANIZATION_ROLE ( 'classification_officer' ) ;
#78 = CALENDAR_DATE ( 2020, 22, 12 ) ;
#79 = SECURITY_CLASSIFICATION ( '', '', #65 ) ;
#80 = COORDINATED_UNIVERSAL_TIME_OFFSET ( 8, 0, .AHEAD. ) ;
#81 = MANIFOLD_SOLID_BREP ( 'Ðý×', #162 ) ;
#82 = ADVANCED_FACE ( 'NONE', ( #33 ), #86, .F. ) ;
#83 = PLANE ( 'NONE',  #26 ) ;
#84 = ORIENTED_EDGE ( 'NONE', *, *, #138, .F. ) ;
#85 = LOCAL_TIME ( 12, 12, 31.00000000000000000, #53 ) ;
#86 = PLANE ( 'NONE',  #20 ) ;
#87 = DIRECTION ( 'NONE',  ( -1.000000000000000000, -0.000000000000000000, -0.000000000000000000 ) ) ;
#88 = LOCAL_TIME ( 12, 12, 31.00000000000000000, #175 ) ;
#89 = EDGE_CURVE ( 'NONE', #49, #32, #70, .T. ) ;
#90 = DATE_AND_TIME ( #137, #109 ) ;
#91 = APPROVAL_ROLE ( '' ) ;
#92 = CALENDAR_DATE ( 2020, 22, 12 ) ;
#93 = DATE_AND_TIME ( #78, #85 ) ;
#94 = AXIS2_PLACEMENT_3D ( 'NONE', #104, #142, #28 ) ;
#95 = LOCAL_TIME ( 12, 12, 31.00000000000000000, #37 ) ;
#96 = ADVANCED_FACE ( 'NONE', ( #17 ), #74, .T. ) ;
#97 = DIRECTION ( 'NONE',  ( 0.000000000000000000, 0.000000000000000000, 1.000000000000000000 ) ) ;
#98 = ORIENTED_EDGE ( 'NONE', *, *, #124, .F. ) ;
#99 =( NAMED_UNIT ( * ) SI_UNIT ( $, .STERADIAN. ) SOLID_ANGLE_UNIT ( ) );
#100 = EDGE_LOOP ( 'NONE', ( #84, #167 ) ) ;
#101 = ORIENTED_EDGE ( 'NONE', *, *, #103, .F. ) ;
#102 = CARTESIAN_POINT ( 'NONE',  ( 2.999999999999999112, 12.69999999999999929, 0.000000000000000000 ) ) ;
#103 = EDGE_CURVE ( 'NONE', #32, #49, #10, .T. ) ;
#104 = CARTESIAN_POINT ( 'NONE',  ( 2.999999999999998224, 0.000000000000000000, 0.000000000000000000 ) ) ;
#105 = APPROVAL_STATUS ( 'not_yet_approved' ) ;
#106 = DIRECTION ( 'NONE',  ( 1.000000000000000000, 0.000000000000000000, 0.000000000000000000 ) ) ;
#107 = DATE_AND_TIME ( #159, #95 ) ;
#108 = CC_DESIGN_DATE_AND_TIME_ASSIGNMENT ( #90, #156, ( #79 ) ) ;
#109 = LOCAL_TIME ( 12, 12, 31.00000000000000000, #80 ) ;
#110 = EDGE_LOOP ( 'NONE', ( #98, #143, #57, #101 ) ) ;
#111 = CARTESIAN_POINT ( 'NONE',  ( -1.187907395172932594E-15, 0.000000000000000000, 12.69999999999999929 ) ) ;
#112 = EDGE_LOOP ( 'NONE', ( #45, #29, #129, #56 ) ) ;
#113 = APPROVAL_PERSON_ORGANIZATION ( #8, #59, #150 ) ;
#114 = APPROVAL_PERSON_ORGANIZATION ( #147, #164, #47 ) ;
#115 = CARTESIAN_POINT ( 'NONE',  ( 0.000000000000000000, 0.000000000000000000, 12.69999999999999929 ) ) ;
#116 = EDGE_LOOP ( 'NONE', ( #2, #73 ) ) ;
#117 = APPLICATION_PROTOCOL_DEFINITION ( 'international standard', 'config_control_design', 1994, #67 ) ;
#118 = CC_DESIGN_PERSON_AND_ORGANIZATION_ASSIGNMENT ( #64, #9, ( #157 ) ) ;
#119 = PERSON ( 'UNSPECIFIED', 'UNSPECIFIED', 'UNSPECIFIED', ('UNSPECIFIED'), ('UNSPECIFIED'), ('UNSPECIFIED') ) ;
#120 = PERSON_AND_ORGANIZATION ( #119, #151 ) ;
#121 = MECHANICAL_CONTEXT ( 'NONE', #55, 'mechanical' ) ;
#122 = DATE_AND_TIME ( #40, #88 ) ;
#123 = DESIGN_CONTEXT ( 'detailed design', #67, 'design' ) ;
#124 = EDGE_CURVE ( 'NONE', #35, #32, #127, .T. ) ;
#125 = PRODUCT ( 'BK7-LNPBSP-25.4-780', 'BK7-LNPBSP-25.4-780', '', ( #121 ) ) ;
#126 = CARTESIAN_POINT ( 'NONE',  ( 2.999999999999998224, 0.000000000000000000, 0.000000000000000000 ) ) ;
#127 = LINE ( 'NONE', #60, #68 ) ;
#128 = DIRECTION ( 'NONE',  ( -1.000000000000000000, -0.000000000000000000, -0.000000000000000000 ) ) ;
#129 = ORIENTED_EDGE ( 'NONE', *, *, #89, .F. ) ;
#130 = CARTESIAN_POINT ( 'NONE',  ( 0.000000000000000000, 0.000000000000000000, 0.000000000000000000 ) ) ;
#131 = CIRCLE ( 'NONE', #94, 12.69999999999999929 ) ;
#132 = EDGE_CURVE ( 'NONE', #4, #49, #168, .T. ) ;
#133 = CARTESIAN_POINT ( 'NONE',  ( -5.939536975864662969E-16, 12.69999999999999929, 0.000000000000000000 ) ) ;
#134 = PERSON_AND_ORGANIZATION ( #119, #151 ) ;
#135 = CC_DESIGN_DATE_AND_TIME_ASSIGNMENT ( #93, #51, ( #75 ) ) ;
#136 =( GEOMETRIC_REPRESENTATION_CONTEXT ( 3 ) GLOBAL_UNCERTAINTY_ASSIGNED_CONTEXT ( ( #52 ) ) GLOBAL_UNIT_ASSIGNED_CONTEXT ( ( #3, #48, #99 ) ) REPRESENTATION_CONTEXT ( 'NONE', 'WORKASPACE' ) );
#137 = CALENDAR_DATE ( 2020, 22, 12 ) ;
#138 = EDGE_CURVE ( 'NONE', #4, #35, #131, .T. ) ;
#139 = SHAPE_DEFINITION_REPRESENTATION ( #152, #163 ) ;
#140 = LOCAL_TIME ( 12, 12, 31.00000000000000000, #41 ) ;
#141 = DIRECTION ( 'NONE',  ( 0.000000000000000000, 0.000000000000000000, 1.000000000000000000 ) ) ;
#142 = DIRECTION ( 'NONE',  ( -1.000000000000000000, -0.000000000000000000, -0.000000000000000000 ) ) ;
#143 = ORIENTED_EDGE ( 'NONE', *, *, #25, .T. ) ;
#144 = DIRECTION ( 'NONE',  ( -1.000000000000000000, -0.000000000000000000, -0.000000000000000000 ) ) ;
#145 = DIRECTION ( 'NONE',  ( 1.000000000000000000, 0.000000000000000000, 0.000000000000000000 ) ) ;
#146 = CC_DESIGN_APPROVAL ( #59, ( #157 ) ) ;
#147 = PERSON_AND_ORGANIZATION ( #119, #151 ) ;
#148 = PERSON_AND_ORGANIZATION_ROLE ( 'creator' ) ;
#149 = PERSON_AND_ORGANIZATION_ROLE ( 'design_owner' ) ;
#150 = APPROVAL_ROLE ( '' ) ;
#151 = ORGANIZATION ( 'UNSPECIFIED', 'UNSPECIFIED', '' ) ;
#152 = PRODUCT_DEFINITION_SHAPE ( 'NONE', 'NONE',  #75 ) ;
#153 = FACE_OUTER_BOUND ( 'NONE', #116, .T. ) ;
#154 = DIRECTION ( 'NONE',  ( -1.000000000000000000, 0.000000000000000000, -0.000000000000000000 ) ) ;
#155 = DIRECTION ( 'NONE',  ( -1.000000000000000000, -0.000000000000000000, -0.000000000000000000 ) ) ;
#156 = DATE_TIME_ROLE ( 'classification_date' ) ;
#157 = PRODUCT_DEFINITION_FORMATION_WITH_SPECIFIED_SOURCE ( 'ANY', '', #125, .NOT_KNOWN. ) ;
#158 = APPROVAL_DATE_TIME ( #62, #59 ) ;
#159 = CALENDAR_DATE ( 2020, 22, 12 ) ;
#160 = PERSON_AND_ORGANIZATION ( #119, #151 ) ;
#161 = CC_DESIGN_APPROVAL ( #69, ( #75 ) ) ;
#162 = CLOSED_SHELL ( 'NONE', ( #96, #42, #82, #171 ) ) ;
#163 = ADVANCED_BREP_SHAPE_REPRESENTATION ( 'BK7-LNPBSP-25.4-780', ( #81, #54 ), #136 ) ;
#164 = APPROVAL ( #21, 'UNSPECIFIED' ) ;
#165 = AXIS2_PLACEMENT_3D ( 'NONE', #126, #155, #97 ) ;
#166 = DIRECTION ( 'NONE',  ( -1.000000000000000000, -0.000000000000000000, -0.000000000000000000 ) ) ;
#167 = ORIENTED_EDGE ( 'NONE', *, *, #25, .F. ) ;
#168 = LINE ( 'NONE', #115, #38 ) ;
#169 = DIRECTION ( 'NONE',  ( 0.000000000000000000, 0.000000000000000000, 1.000000000000000000 ) ) ;
#170 = CARTESIAN_POINT ( 'NONE',  ( 2.999999999999998224, 0.000000000000000000, 12.69999999999999929 ) ) ;
#171 = ADVANCED_FACE ( 'NONE', ( #153 ), #83, .F. ) ;
#172 = APPROVAL_DATE_TIME ( #107, #69 ) ;
#173 = PERSON_AND_ORGANIZATION ( #119, #151 ) ;
#174 = PERSON_AND_ORGANIZATION_ROLE ( 'design_supplier' ) ;
#175 = COORDINATED_UNIVERSAL_TIME_OFFSET ( 8, 0, .AHEAD. ) ;
ENDSEC;
END-ISO-10303-21;
